The Super Furry Animals, an SFA fansite, super furry animals - unofficially.
unofficially super furry animals - sfa - (A) Touch Sensitive - [tab/chords].

(A) Touch Sensitive
ARRANGED FOR GUITAR (ROCK ON CIAN!)
http://members.tripod.com/batyboot/

The whole song is based around Bm
The bass goes like this
G|-------------------|
D|-------------------|
A|-------------------|
E|--7-7-7-7-7-7-7h8--|

WEIRD SOUNDING RIFF (or as close as I could get to it) @ 0:18
E|--8--7-----------------s10-8-7--|
B|--------7---10--8--7------------|
G|--------------------------------|
D|--------------------------------|
A|--------------------------------|
E|--------------------------------|

E|------------------------------------|
B|--10-8-----------7s8-7-----7--------|
G|--------11--9--8--------------7--6--|
D|------------------------------------|
A|------------------------------------|
E|------------------------------------|

E|-22-21----22---21--------------------|
B|-------22--------------20-19--15--17-|
G|-------------------19----------------|
D|-------------------------------------|
A|-------------------------------------|
E|-------------------------------------|

E|-12--10------15-14--|
B|---------14---------|
G|--------------------|
D|--------------------|
A|--------------------|
E|--------------------|

Then play that again

PIANO BIT

E|-------------------------------|
B|-------------------------------|
G|-------------------------------|
D|-11--11--12--12--9--9--11--11--|
A|-------------------------------|
E|-------------------------------|

RIFF @ 1:35
E|--9--9---10--10---7--7---9--9--|
B|-------------------------------|
G|-------------------------------|
D|-------------------------------|
A|-------------------------------|
E|-------------------------------|

Melonie Walter       All Rights Reserved ©2003 - 2016       SuperFurry.org       melonie at tifandgif.com Top^