The Super Furry Animals, an SFA fansite, super furry animals - unofficially.
unofficially super furry animals - sfa - Bad Behaviour - [tab/chords].

Bad Behaviour

Verse

A G adding notes on top 'a la Blues(?) style.

A-riff G-riff
E x x x x x x x x
B x x x x x x x x
G x x x x x x x x
D 7 7 7 7 5 5 5 5
A 7 7 9 7 5 5 7 5
E 5 5 5 5 3 3 3 3

Chorus

E B D A

The chorus is similar riffs to those in the verse, ie based around
these chords.

Solo over chorus chords

bad behaviour - solo 1- "/" =long note
E B D A 2times
e---------------------------------------
b-------------------12/---12--12--12--12-
g-----------9---14------14--14--14--14---
d-----2-----9-----------------------------
a-----2--7-------------------------------
e-0-0-------------------------------------

e---------------------------------------
b---------------------------------------
g-9/--9--11-11-12-12-14-14-14-14-12-12-
d---------------------------------------
a--------------------------------------
e---------------------------------------

e---------------------------------------
b---------------------------------------
g-11-11-9-9-7-7-6-6-4-4-2-2-4-2-4-2-4
d---------------------------------------
a--------------------------------------
e---------------------------------------

e-12-14-12-14-12-14-12-14-12-14-12-14
b---------------------------------------
g---------------------------------------
d---------------------------------------
a--------------------------------------
e---------------------------------------

e-12-14-12-14-15-17-15-17-15-17-15-17
b---------------------------------------
g---------------------------------------
d---------------------------------------
a--------------------------------------
e---------------------------------------

e-15-17-15-17-15-17-15-17-22/-20-20-22
b---------------------------------------
g---------------------------------------
d---------------------------------------
a--------------------------------------
e---------------------------------------

e-12-14-12-14-12-14-12-14-12-14-12-14
b---------------------------------------
g---------------------------------------
d---------------------------------------
a--------------------------------------
e---------------------------------------

e-12-14-12-14--------------------------
b---------------------------------------
g---------------------------------------
d---------------------------------------
a--------------------------------------
e---------------------------------------

solo 2
E B D A 4times
e-----------------12-14-12-14-12-14-12-
b---------------------------------------
g---------------------------------------
d---------------------------------------
a--------------------------------------
e-cian's noise---------------------------

e-14-12-14-12-14-12-14-12-14---------
b---------------------------------------
g---------------------------------------
d---------------------------------------
a--------------------------------------
e-------------------------------12-14--

e---------------------------------------
b-------------------12/--12--12--12--12
g----------------------14--14--14--14--
d--------12-14-12----------------------
a-12-14---------------------------------
e---------------------------------------

e---------------------------------------
b---------------------------------------
g-9/--9--11-11-12-12-14-14-14-14-12-12-
d---------------------------------------
a--------------------------------------
e---------------------------------------

e---------------------------------------
b---------------------------------------
g-11-11-9-9-7-7-6-6-4-4-2-2-4-2-4-2-4
d---------------------------------------
a--------------------------------------
e---------------------------------------

e-12-14-12-14-12-14-12-14-12-14-12-14
b---------------------------------------
g---------------------------------------
d---------------------------------------
a--------------------------------------
e---------------------------------------

e-12-14-12-14-15-17-15-17-15-17-15-17
b---------------------------------------
g---------------------------------------
d---------------------------------------
a--------------------------------------
e---------------------------------------

e-15-17-15-17-15-17-15-17-22-20-22-22
b---------------------------------------
g---------------------------------------
d---------------------------------------
a--------------------------------------
e---------------------------------------

e-22-22--0-0-2-2-3-3-5-5-3-3-2-2-0-0-
b---------------------------------------
g---------------------------------------
d---------------------------------------
a--------------------------------------
e---------------------------------------

e12-14-12-14-12-14-12-14-12-14-12-14
b---------------------------------------
g---------------------------------------
d---------------------------------------
a--------------------------------------
e---------------------------------------

e12-14-12-14-12-14-12-14-12-14-12-14
b---------------------------------------
g---------------------------------------
d---------------------------------------
a--------------------------------------
e---------------------------------------

e12-14-12-14-12-14-12-14-15-17-15-17
b---------------------------------------
g---------------------------------------
d---------------------------------------
a--------------------------------------
e---------------------------------------

e15-17-15-17-till the end.
b---------------------------------------
g---------------------------------------
d---------------------------------------
a--------------------------------------
e---------------------------------------

Melonie Walter       All Rights Reserved ©2003 - 2016       SuperFurry.org       melonie at tifandgif.com Top^