The Super Furry Animals, an SFA fansite, super furry animals - unofficially.
unofficially super furry animals - sfa - Dacw Hi - [tab/chords].

Dacw Hi
http://members.tripod.com/batyboot/

VERSE
B A E
Lead Riff

E|---------------------------------------------|
B|----------7---------7---------7---------5h7--|
G|---4-h-6-----4-h-6-----4-h-6-----4-h-6-------|
D|---------------------------------------------|
A|---------------------------------------------|
E|---------------------------------------------|

E|-------------------------------------------|
B|----------5---------5---------5---------5--|
G|---4-h-6-----4-h-6-----4-h-6-----4-h-6-----|
D|-------------------------------------------|
A|-------------------------------------------|
E|-------------------------------------------|

E|--------------------------|
B|-----------5--------5--7--|
G|--0h2-s-4------4h6--------|
D|--------------------------|
A|--------------------------|
E|--------------------------|

CHORUS

A E B

E A E

THEN

F# A B

RIFF

E|-------------------|
B|-------------------|
G|-------------------|
D|---2---4---6--4--2-|
A|-4-----------------|
E|-------------------|

E|----------------------|
B|----------------------|
G|----------------------|
D|-2--4--2---6---4------|
A|-------------------2--|
E|----------------------|

Solo
E|----------------------------------------|
B|--7b--7b-7---5----5--5--2---------2---5-|
G|---------------------------6--4---------|
D|----------------------------------------|
A|----------------------------------------|
E|----------------------------------------|

E|----------------------------------|
B|--7b--7b-7---5----5--5--2---------|
G|---------------------------6--4---|
D|----------------------------------|
A|----------------------------------|
E|----------------------------------|

Melonie Walter       All Rights Reserved ©2003 - 2016       SuperFurry.org       melonie at tifandgif.com Top^