The Super Furry Animals, an SFA fansite, super furry animals - unofficially.
unofficially super furry animals - sfa - (Drawing) Rings Around The World - [tab/chords].

(Drawing) Rings Around The World
http://members.tripod.com/batyboot/

I've tabbed this in standard tuning, although if you play it with the CD you'll notice that
it's slightly out. I suspect that the tape has been speeded up a little during recording.
Either that or my guitars out of tune!

Intro
Eb Bb etc.

Lead riff
E|---------------------------|
B|-8--6-------------6--8--6--|
G|-------8-7-5--5h7----------|
D|---------------------------|
A|---------------------------|
E|---------------------------|

VERSE
Bb Eb
E|-----------------------------|
B|------------------------8-8--|
G|------------------------8-8--|
D|--8-8-8--8---8-8-8--8---8-8--|
A|--8-8-10-8---8-8-10-8---6-6--|
E|--6-6-6--6---6-6-6--6--------|

CHORUS
Bb Eb D C# B Bb
E|-------------------------------------------|
B|-------------------------------------------|
G|-----8--8----------------------------------|
D|-8---8--8--12--11--11----11--9--9---9--8-8-|
A|-8---6--6--12--11--11----11--9--9---9--8-8-|
E|-6---------10--9---9-----9---7--7---7--6-6-|

Melonie Walter       All Rights Reserved ©2003 - 2016       SuperFurry.org       melonie at tifandgif.com Top^