The Super Furry Animals, an SFA fansite, super furry animals - unofficially.
unofficially super furry animals - sfa - Drygioni - [tab/chords].

Drygioni
http://members.tripod.com/batyboot/

VERSE
E B Bb A

E|---------------------------|
B|--------------2-2-2--------|
G|-1-1-1--------2-2-2--------|
D|-2-2-2--------2-2-2-2-0-2--|
A|-2-2-2--2-1-0-0-0-0--------|
E|-0-0-0---------------------|

Then

G A

E|-------------------|
B|-------------------|
G|-------------------|
D|-5-5--5---5-5--5---|
A|-5-5--7---5-5--7---|
E|-3-3--3---3-3--3---|

Lead RIFF goes something like this

E|-------------------------------------|
B|-------------------------------------|
G|---14b--14b--14b--16-15--12-12--14---|
D|-------------------------------------|
A|-------------------------------------|
E|-------------------------------------|

E|-------------------------------------|
B|-------------------------------------|
G|----------12---14---16---14--12--14--|
D|-12---14-----------------------------|
A|-------------------------------------|
E|-------------------------------------|

Melonie Walter       All Rights Reserved ©2003 - 2016       SuperFurry.org       melonie at tifandgif.com Top^