The Super Furry Animals, an SFA fansite, super furry animals - unofficially.
unofficially super furry animals - sfa - Focus Pocus/Debiel - [tab/chords].

Focus Pocus/Debiel
*Focus Pocus*

B, F#, A, E, G, F# x6
C#, G#, E, B, C# rpt.
Flute = B, F#, A, E, G, F# then that x3
e-----------------------------------------------------
B-----------14-14-14-17-16-14----15-17-15-(14-15)TRILL
G--16-16-16-------------------14----------------------
Slow Bit: D, G, Gm x2
D, D/C#, D/B, D/A, G, Bb
Bm, Bb, A rpt. slow bit till fade and end on a D.
GTR over the top =
e----------------------------------------------
B--------------12p10------12-------------------
G-7--7/11-11p9-------9------------7--7h9-7-rpt.
D----------------------12------7h9-------------
A----------------------------------------------
E----------------------------------------------

e----------------------------------------------
B----------------------------------------------
G-7/9\6-------6/7\4-------4/6\2-------4h6-0----
D---------7h9---------5h7---------2h4----------
A----------------------------------------------
E----------------------------------------------

*Debiel*
This is just a D note all the way through

Melonie Walter       All Rights Reserved ©2003 - 2016       SuperFurry.org       melonie at tifandgif.com Top^