The Super Furry Animals, an SFA fansite, super furry animals - unofficially.
unofficially super furry animals - sfa - Hangin' With Howard Marks - [tab/chords].

Hangin' With Howard Marks

Tune over chords:

e ------------------------------------------------
B 10---8-----------------------------------10--12-
G ---------11---9--------9h11---9-----------------
D -----------------12--------------12-------------
A -------------------------------------12---------
E ------------------------------------------------

e ---10---12---10-------10-
B -----------------12------
G -------------------------
D -------------------------
A -------------------------
E -------------------------

Chords under tune:

e 5 1 1 5 5
B 7 1 1 7 5
G 7 2 4 7 9
D 7 3 5 7 7
A 5 5 3 5 5 5
E 1 3
^ ^ ^ ^ ^
D F G D funny D

Verse: Bass notes of above chords for two lines then:

slide a high D (10th fret E string) down after striking it
twice quickly at the beginning of each line and for the last one
, add an F and a G on the end.

"Throw a penny...":

E F# G A Bb A

with

G-----9--11--12------
D--12------------12--

Chorus

A G D
D C

with

B--10--8---------------
G---------11--9------9-
D----------------12----

then

G------9--11------
D--12---------12--

then

B--10--8----------------
G---------11--9------9--
D----------------12-----

and the last bit of the song is just

e----------10--12--10------10--
B--10--12--------------12------

done quicker than usual, I think.

Melonie Walter       All Rights Reserved ©2003 - 2016       SuperFurry.org       melonie at tifandgif.com Top^