The Super Furry Animals, an SFA fansite, super furry animals - unofficially.
unofficially super furry animals - sfa - (Nid) Hon Yw'r Gân Sy'n Mynd I Achub Yr Iaith - [tab/chords].

(Nid) Hon Yw'r Gân Sy'n Mynd I Achub Yr Iaith

Dm7 e-1-0-
B-----1-
G-------0
Intro =
e------------------------------------------------------
B------------------------------------------------------
G------------------------------------------------------ X2
D--------2---6--2--2--------------------------2--------
A-(0)-/4---4-----4---4-4--2----2----2----2--4---4--2--0
E---------------------------4b---4b--------------------

A(2) C#m(7)
Nid hon yw'r gbn sy'n mynd i achub yr iaith
Bm(7) E(7)
Ond gwneith o'm difrod iddi chwaith
A(2) C#m(7)
Dim ond carreg mewn wal barhaus
Bm(7) E(7)
A 'sgen i'm bwriad bod yn sarhaus
Bm E
'Sgen i'm bwriad bod yn sarhaus

Rpt.....
Nid hon yw'r gbn, nid hon yw'r gbn... and end on a Gmajor
Then do the intro riff once....
Then this solo....
e-------------------------------------------------------------
B-------------------------------------------------------------
G-9--9h11p9----------9-----------------------/9-9h11-9--------
D-----------11--9h11---11-9-11---------7---------------11-9-7-
A------------------------------9---7h9---9-7------------------
E--------------------------------7----------------------------

A C#m
Nid hon yw'r gbn sy'n mynd i achub y byd
Bm E
Tra 'dwi yn gorwedd ar fy hyd
A C#m
Mae rhai yn Rhydd, rhai eraill yn Gaeth
Bm E
A 'dwi'n deud llefrith, ti'n gweud llaeth
Bm E
'Dwi'n deud llefrith, ti'n gweud llaeth

Nid hon yw'r gbn, nid hon yw'r gbn...

OUTRO =
A, G#, G, F# F rpt. then Dm7, A.

Melonie Walter       All Rights Reserved ©2003 - 2016       SuperFurry.org       melonie at tifandgif.com Top^