The Super Furry Animals, an SFA fansite, super furry animals - unofficially.
unofficially super furry animals - sfa - Nightvision - [tab/chords].

Nightvision
http://members.tripod.com/batyboot/

MAIN RIFF
Eb D C D C A
E|----------------------------------
B|----------------------------------
G|--8--8-8---7--7--7---5--7--5--2---
D|----------------------------------
A|--6--6-8---5--5--5---3--5--3--0---
E|----------------------------------

You can also play this riff using 5ths just use whatever you think sounds cool.

CHORUS
A C D A

LEAD GUITAR RIFF
E|-----------------------------
B|-----------------------------
G|-----5--7--7b8r7---5---------
D|--7------------------7--7----
A|-----------------------------
E|-----------------------------
BRIDGE

Only the bass plays during this bit and it just follows the verse, playing this.

Eb D C D C A

Melonie Walter       All Rights Reserved ©2003 - 2016       SuperFurry.org       melonie at tifandgif.com Top^