The Super Furry Animals, an SFA fansite, super furry animals - unofficially.
unofficially super furry animals - sfa - PamV?/Pam Fi - [tab/chords].

PamV?/Pam Fi
| | denotes 1 bar(just for timing purposes)

INTRO

|B A| G#m |A |F# |B A |
e---------------------------------------------------------
B--4--2-4--------2-2-2-2--------------------4--2-4/7------
G----------4-------------4-4-4-4--3--1--3-----------------
D---------------------------------------------------------
A---------------------------------------------------------
E---------------------------------------------------------

|A | F# |A |F# |
e---------------------------------------------------------
B---2-2-2-2--------------------2-2-2-2-------------------4
G-----------4-4-4-4--3--1--3-----------4-4-4-4--3--1--3---
D---------------------------------------------------------
A---------------------------------------------------------
E---------------------------------------------------------

VERSE:
|B A|G#m |
Dwy awr o gwsg,
|A |F# |
Ti a fi yn ddau annatod.
|B A|G#m |
Dwy awr o gwsg,
|A | F# |
Tafod am dafod a llygad wrth lygad,
|A |F# |
Clystan gan blys, mae'n ysgol brofiad.

CHORUS
|B D#m |D |B
Pam fi? Pwy a wyr? Pwy sy'n gwrando ar dy lais?
D#m |D |
Pam fi? Pwy a wyr? Pam na

VERSE
|B A|G#m |
Dwy awr o gwsg,
|A |F# |
Cysgodion yn nofio'n esmwyth
|B A|G#m |
Dwy awr o gwsg.
|A |F# |
Pa mor dynn aeth llafn y gwregus,
|A |F# |
Dy ben mor gryf ath gorff mor fregus?

CHORUS
|B D#m |D |B
Pam fi? Pwy a wyr? Pwy sy'n gwrando ar dy lais?
D#m |D |
Pam fi? Pwy a wyr? Pam na

BRIDGE TYPE BIT
|F# A |E B |
gwely, gwely, gwely, gwely, gwely, gwely, gwely, gwely repeat 4 times

REPEAT INTRO

REPEAT CHORUS

REPEAT BRIDGE TYPE BIT

OUTRO
|F# A|E B |
na na na na na na na na naaaa repeat 4 times then end

Melonie Walter       All Rights Reserved ©2003 - 2016       SuperFurry.org       melonie at tifandgif.com Top^