The Super Furry Animals, an SFA fansite, super furry animals - unofficially.
unofficially super furry animals - sfa - Shoot Doris Day - [tab/chords].

Shoot Doris Day
Shoot Doris Day
Tabbed by Max Deadman

Part 1

E----------------------------------------------------------------------------------------------------- 3--2--3-- (chorus)
B---------1----------------3----------------------------------------------1--------------------3-----------3--
G----------2-------------2---2----------------0----------------------------2---------------2---2----------2--
D---2-------2---------0--------------------0-------------0----------2-------2---------0---------------------
A-0---------------0-----------------0h2----------0h2------------0---------------0-------------------------
E--------------------------------3-----------------------------1------------------------------------------------

Sentimentality pause, As Jimmy Stewart ignores, Her question
(Chorus)
G F C
People never stay the same
C G F C
It's a fight between the wild and tame
C G Bb
I've some feelings that I can't get through
Am
Even to you my friend.
Back to Part one
E----------------------------------------------------------------------------------------------------- 3--2--3-- (chorus)
B---------1----------------3----------------------------------------------1--------------------3-----------3--
G----------2-------------2---2----------------0----------------------------2---------------2---2----------2--
D---2-------2---------0--------------------0-------------0----------2-------2---------0---------------------
A-0---------------0-----------------0h2----------0h2------------0---------------0-------------------------
E--------------------------------3-----------------------------1------------------------------------------------

Public relationship tears No one would touch him For years

(Chorus)

Melonie Walter       All Rights Reserved ©2003 - 2016       SuperFurry.org       melonie at tifandgif.com Top^