The Super Furry Animals, an SFA fansite, super furry animals - unofficially.
unofficially super furry animals - sfa - The Teacher - [tab/chords].

The Teacher
http://members.tripod.com/batyboot/

VERSE

G F Bb C
You have to use fast slides up to the G and the C, like this

E|-------------------------|
B|-------------------------|
G|---------------s-5-5-5-5-|
D|-s-5-5-5-5--3--s-5-5-5-5-|
A|-s-5-5-5-5--3--s-3-3-3-3-|
E|-s-3-3-3-3--1------------|

LEAD GUITAR
E|------------------|
B|-s15--12--10------|
G|--------------12--|
D|------------------|
A|------------------|
E|------------------|

THEN
F palm mute

Outro
F G F G

Melonie Walter       All Rights Reserved ©2003 - 2016       SuperFurry.org       melonie at tifandgif.com Top^