The Super Furry Animals, an SFA fansite, super furry animals - unofficially.
unofficially super furry animals - sfa - Y Gwyneb Iau - [tab/chords].

Y Gwyneb Iau
http://members.tripod.com/batyboot/

INTRO TRUMPET PARTS

E|------------------------------------|
B|-10-10--12---10--8-----8---10----7--|
G|--------------------9---------------|
D|------------------------------------|
A|------------------------------------|
E|------------------------------------|

E|------------------------------------|
B|-10-10--12---10--8-----8---10----7--|
G|--------------------9---------------|
D|------------------------------------|
A|------------------------------------|
E|------------------------------------|

E|-----------------------------------------------|
B|-10-10--12---10--8-----8---10----7-hold-----10-|
G|--------------------9--------------------------|
D|-----------------------------------------------|
A|-----------------------------------------------|
E|-----------------------------------------------|

And the acoustic guitar plays this
Am G F#m

VERSE
Same as intro

CHORUS

E A G

E A G

Then F#m and back to the verse

TRUMPET PART CHORUS

E|-----7--9-9------------------------|
B|--9----------5----5--5---8--10--5--|
G|-----------------------------------|
D|-----------------------------------|
A|-----------------------------------|
E|-----------------------------------|

E|-----7--9-9-----------------------------------------|
B|--9----------5----5--5---8--10--5----8--10--5-hold--|
G|----------------------------------------------------|
D|----------------------------------------------------|
A|----------------------------------------------------|
E|----------------------------------------------------|

OUTRO
You'll have to listen to the CD to figure out the rhythm for this bit, Sorry!

B Bb A

F# F E B

Melonie Walter       All Rights Reserved ©2003 - 2016       SuperFurry.org       melonie at tifandgif.com Top^