The Super Furry Animals, an SFA fansite, super furry animals - unofficially.
unofficially super furry animals - sfa - Ymaelodi A'r Ymylon - [tab/chords].

Ymaelodi A'r Ymylon
http://members.tripod.com/batyboot/

Acoustic guitar is in standard tuning and the lead is in Drop D.
I don't know if it should be in drop D but it sounds cool anyway!

VERSE

A D A D

E A E

CHORUS

F#m F D

LEAD RIFF drop D
E|----------------------|
B|-5-5--3--1--3---------|
G|---------------2-s-4--|
D|----------------------|
A|----------------------|
D|----------------------|

Abm G E

BRIDGE (1:26)
E|---------------------------|
B|---------------------------|
G|---------------------------|
D|---------------------------|
A|--------0------------------|
D|--4--3----0---6--5---0--2--|

Melonie Walter       All Rights Reserved ©2003 - 2016       SuperFurry.org       melonie at tifandgif.com Top^